Québec-Musique.com

Forum de discussion des musiciens et musiciennes du Québec
 
AccueilAccueil  PortailPortail  FAQFAQ  RechercherRechercher  S'enregistrerS'enregistrer  Connexion  

Partagez | 
 

 Répertoire acoustique

Voir le sujet précédent Voir le sujet suivant Aller en bas 
Aller à la page : 1, 2  Suivant
AuteurMessage
GranBjam
Langue pendue
avatar

Nombre de messages : 166
Localisation : Granby
Instrument : Yamaha APX-4 (6) Normand B-20 (12) Tanglewood (6)
Date d'inscription : 29/12/2004

MessageSujet: Répertoire acoustique   Jeu 24 Aoû 2006, 14:31

J'aimerais que l'on partage entre nous, nos répertoires respectifs.

Question de découvrir de nouvelles tounnes à faire.

Voici comment mon cartable de chansons est monté, toutes mes chansons sont regroupées par Section et une Section compte 10 tounnes. Je sort ensuite une liste par (nom d'artiste ou groupe) et je fais circuler une couple de listes dans la salle et les gens peuvent me faire des demandes spéciales en m'identifiant la Section où ce trouve la tounne demandée.
C'est très rapide à touver et je n'ai plus à replacer continuellement mes tounnes dans mon cartable, je ne fais que rajouter à la suite.



Revenir en haut Aller en bas
Voir le profil de l'utilisateur http://yvan.brouillette.googlepages.com/home
music182
Langue pendue
avatar

Nombre de messages : 337
Age : 27
Localisation : Laval
Instrument : Ibanez Rg series, Jasmine by Takamine ES31C, Basse peavey millenium
Date d'inscription : 17/07/2006

MessageSujet: Re: Répertoire acoustique   Jeu 24 Aoû 2006, 14:38

Ouais j'ai commencé ca moi aussi! Mais comme je n'ai que 30 tounes... j'ai tout mis dans un duo-tang! Et je vois que plusieurs d'entre elle sont dans ta liste.

Mais il y a un site fait juste pour ca, c'est la boite à chanson. J'sais pas si tu connais.

http://www.boiteachansons.net/
Revenir en haut Aller en bas
Voir le profil de l'utilisateur http://music18225.spaces.live.com
alexsamsoon
Langue pendue


Nombre de messages : 391
Age : 29
Localisation : Ste-Foy
Instrument : Epiphone LP Standard - Epiphone Hummingbird
Amplification/Effets : Traynor YCV-40
Date d'inscription : 21/06/2006

MessageSujet: Re: Répertoire acoustique   Jeu 24 Aoû 2006, 15:08

Connaissez vous le riff quon entend en arriere dans la toune femme de reves claude dubois?

Je parviens pas a le jouer ou le trouver!!
Revenir en haut Aller en bas
Voir le profil de l'utilisateur
Steppenwolf
Langue pendue
avatar

Nombre de messages : 74
Age : 37
Localisation : Laurentide
Date d'inscription : 21/08/2006

MessageSujet: Re: Répertoire acoustique   Ven 25 Aoû 2006, 01:01

alexsamsoon....regarde...je sé pas si sa peu taider

http://www.partitions101.net/partition/femmes_de_reve
Revenir en haut Aller en bas
Voir le profil de l'utilisateur http://www.fridaysheroes.com
Steppenwolf
Langue pendue
avatar

Nombre de messages : 74
Age : 37
Localisation : Laurentide
Date d'inscription : 21/08/2006

MessageSujet: Re: Répertoire acoustique   Ven 25 Aoû 2006, 01:06

E ------|------|------|------|------|------|------|------|------|-----
B ------|------|------|------|------|------|------|------|------|-----
G ------|------|------|------|------|------|------|------|------|-----
D ------|------|------|------|------|------|------|------|------|-----
A ------|------|------|------|------|------|------|------|------|-----
E ------|------|------|------|------|------|------|------|------|-----

E -|------|------|------|------|------|------|------|------|----------
B -|------|------|------|------|------|------|------|------|-0-3-2-0-3
G -|------|------|------|------|------|------|------|------|----------
D -|------|------|------|------|------|------|------|------|----------
A -|------|------|------|------|------|------|------|------|----------
E -|------|------|------|------|------|------|------|------|----------

E -----|-----0-|---------------|-----0-|---------------|-----0-|-0-0--
B -2-0-|-2-3---|-0-3-2-0-3-2-0-|-2-3---|-0-3-2-0-3-2-0-|-2-3---|-----2
G -----|-------|---------------|-------|---------------|-------|------
D -----|-------|---------------|-------|---------------|-------|------
A -----|-------|---------------|-------|---------------|-------|------
E -----|-------|---------------|-------|---------------|-------|------

E -|---|------|------|-----|-----|------|------|------|------|------|-
B -|-0-|------|------|-0-0-|-0-0-|------|------|------|------|------|-
G -|---|------|------|-----|-----|------|------|------|------|------|-
D -|---|------|------|-2-2-|-2-2-|------|------|------|------|------|-
A -|---|------|------|-----|-----|------|------|------|------|------|-
E -|---|------|------|-----|-----|------|------|------|------|------|-

E -----|------|------|------|------|------|------|------|------|------
B -----|------|------|------|------|------|------|------|------|------
G -----|------|------|------|------|------|------|------|------|------
D -----|------|------|------|------|------|------|------|------|------
A -----|------|------|------|------|------|------|------|------|------
E -----|------|------|------|------|------|------|------|------|------

E |------|------|---------------|-----0-|---------------|-----0-|-----
B |------|------|-0-3-2-0-3-2-0-|-2-3---|-0-3-2-0-3-2-0-|-2-3---|-0-3-
G |------|------|---------------|-------|---------------|-------|-----
D |------|------|---------------|-------|---------------|-------|-----
A |------|------|---------------|-------|---------------|-------|-----
E |------|------|---------------|-------|---------------|-------|-----

E ----------|-----0-|-0-0---|---|------|------|-----|-----|------|----
B 2-0-3-2-0-|-2-3---|-----2-|-0-|------|------|-0-0-|-0-0-|------|----
G ----------|-------|-------|---|------|------|-----|-----|------|----
D ----------|-------|-------|---|------|------|-2-2-|-2-2-|------|----
A ----------|-------|-------|---|------|------|-----|-----|------|----
E ----------|-------|-------|---|------|------|-----|-----|------|----

E --|------|------|------|------|------|------|------|------|------|--
B --|------|------|------|------|------|------|------|------|------|--
G --|------|------|------|------|------|------|------|------|------|--
D --|------|------|------|------|------|------|------|------|------|--
A --|------|------|------|------|------|------|------|------|------|--
E --|------|------|------|------|------|------|------|------|------|--

E ----|------|------|------|------|------|---------------|-----0-|----
B ----|------|------|------|------|------|-0-3-2-0-3-2-0-|-2-3---|-0-3
G ----|------|------|------|------|------|---------------|-------|----
D ----|------|------|------|------|------|---------------|-------|----
A ----|------|------|------|------|------|---------------|-------|----
E ----|------|------|------|------|------|---------------|-------|----

E -----------|-----0-|---------------|-----0-|-0-0---|---|------|-----
B -2-0-3-2-0-|-2-3---|-0-3-2-0-3-2-0-|-2-3---|-----2-|-0-|------|-----
G -----------|-------|---------------|-------|-------|---|------|-----
D -----------|-------|---------------|-------|-------|---|------|-----
A -----------|-------|---------------|-------|-------|---|------|-----
E -----------|-------|---------------|-------|-------|---|------|-----

E -|-----|-----|
B -|-0-0-|-0-0-|
G -|-----|-----|
D -|-2-2-|-2-2-|
A -|-----|-----|
E -|-----|-----|
Revenir en haut Aller en bas
Voir le profil de l'utilisateur http://www.fridaysheroes.com
Steppenwolf
Langue pendue
avatar

Nombre de messages : 74
Age : 37
Localisation : Laurentide
Date d'inscription : 21/08/2006

MessageSujet: Re: Répertoire acoustique   Ven 25 Aoû 2006, 01:09

cé les tabulations quont entend la guitare en arriere plan.....
Revenir en haut Aller en bas
Voir le profil de l'utilisateur http://www.fridaysheroes.com
alexsamsoon
Langue pendue


Nombre de messages : 391
Age : 29
Localisation : Ste-Foy
Instrument : Epiphone LP Standard - Epiphone Hummingbird
Amplification/Effets : Traynor YCV-40
Date d'inscription : 21/06/2006

MessageSujet: Re: Répertoire acoustique   Ven 25 Aoû 2006, 09:17

ah merci beaucpou je vais essayer
Revenir en haut Aller en bas
Voir le profil de l'utilisateur
GranBjam
Langue pendue
avatar

Nombre de messages : 166
Localisation : Granby
Instrument : Yamaha APX-4 (6) Normand B-20 (12) Tanglewood (6)
Date d'inscription : 29/12/2004

MessageSujet: Re: Répertoire acoustique   Ven 25 Aoû 2006, 12:00

Ouin, ça m'a tout l'air que ce ne sera ici que je vais améliorer mon répertoire. Sad blackeye
Revenir en haut Aller en bas
Voir le profil de l'utilisateur http://yvan.brouillette.googlepages.com/home
music182
Langue pendue
avatar

Nombre de messages : 337
Age : 27
Localisation : Laval
Instrument : Ibanez Rg series, Jasmine by Takamine ES31C, Basse peavey millenium
Date d'inscription : 17/07/2006

MessageSujet: Re: Répertoire acoustique   Ven 25 Aoû 2006, 12:24

Mais non faut pas se découragé si vite!!!

Si dans les deux images ta mis tout les chansons que t'as, j'crois qu'on peut facilement te trouver des tounes.

Pour ma part, j'ai une chanson qui est un hit a tout les fois que je sors ma guitare. C'est très très loin d'etre ma chansons préféré (j'crois pas que ce serait ton genre non plus) mais les gens l'adore. C'est Torn de Natalie Imbruglia.

Tu regarderas ca, ca vaut la peine.
Revenir en haut Aller en bas
Voir le profil de l'utilisateur http://music18225.spaces.live.com
GranBjam
Langue pendue
avatar

Nombre de messages : 166
Localisation : Granby
Instrument : Yamaha APX-4 (6) Normand B-20 (12) Tanglewood (6)
Date d'inscription : 29/12/2004

MessageSujet: Re: Répertoire acoustique   Ven 25 Aoû 2006, 12:42

C'est exactement le type de tounnes que je recherche... je veux découvrir vos meilleures tounnes lorsque vous jouez seul et que le monde aime entendre...

Merci, et si tu en as d'autres fais-moi signe!!!

Allez-y bombardez moi avec vos hits accrocheurs...

C'est une tounne entrainante qui met de l'ambiance il ne reste plus qu'à l'adapter à ma tonalité, thanks!
Revenir en haut Aller en bas
Voir le profil de l'utilisateur http://yvan.brouillette.googlepages.com/home
Belzebuth
Grande gueule
avatar

Nombre de messages : 2500
Age : 38
Localisation : québec
Instrument : Godin LGxt, Strat
Amplification/Effets : Orange rockerverb 50H +PPC212, Vox Ad15VT
Date d'inscription : 07/08/2006

MessageSujet: Re: Répertoire acoustique   Ven 25 Aoû 2006, 13:26

Knockin'on heaven's door...moi je suis entrain de la monter version Guns n' roses avec les solos....mais elle est tres bonne aussi version Bob Dylan pour l'acoustique Wink et tout le monde connais au moins le refrain!!
Revenir en haut Aller en bas
Voir le profil de l'utilisateur
alexsamsoon
Langue pendue


Nombre de messages : 391
Age : 29
Localisation : Ste-Foy
Instrument : Epiphone LP Standard - Epiphone Hummingbird
Amplification/Effets : Traynor YCV-40
Date d'inscription : 21/06/2006

MessageSujet: Re: Répertoire acoustique   Sam 26 Aoû 2006, 12:59

Everly Brothers- Bye Bye Love
Richard Seguin- Aux Portes Du matin
Claude Dubois- Femme De reves
France D'amour- Vivante
Dispatch- Hey Hey
Les CF- Mon Chum Remi
Les Cf- Atchawien quek chose dans le genre haha
Les CF- A poly
Daniel Belanger- Seche Tes pleurs
Jacques Michel- Pas besoin de frapper
Plume- Saoul comme une botte
Daniel Belanger- En mon bonheur
beau dommage- Dimanche au soir a chateauguay
Martin deschamps- Quand
Daniel belanger- Folie en quatre
cookie dingle- Femme libere
daniel belanger- la plus belle saison de ma vie
Claude dubois- Jaurais voulu etre un artistre
Jean le loup- le dome
robert charlebois- les ailes dun ange

Il y en a surment qui on ete dit!
Revenir en haut Aller en bas
Voir le profil de l'utilisateur
music182
Langue pendue
avatar

Nombre de messages : 337
Age : 27
Localisation : Laval
Instrument : Ibanez Rg series, Jasmine by Takamine ES31C, Basse peavey millenium
Date d'inscription : 17/07/2006

MessageSujet: Re: Répertoire acoustique   Dim 27 Aoû 2006, 00:15

GranBjam a écrit:
C'est exactement le type de tounnes que je recherche... je veux découvrir vos meilleures tounnes lorsque vous jouez seul et que le monde aime entendre...

Merci, et si tu en as d'autres fais-moi signe!!!

Allez-y bombardez moi avec vos hits accrocheurs...

C'est une tounne entrainante qui met de l'ambiance il ne reste plus qu'à l'adapter à ma tonalité, thanks!

Ravie d'avoir pu t'aider Wink
Revenir en haut Aller en bas
Voir le profil de l'utilisateur http://music18225.spaces.live.com
GranBjam
Langue pendue
avatar

Nombre de messages : 166
Localisation : Granby
Instrument : Yamaha APX-4 (6) Normand B-20 (12) Tanglewood (6)
Date d'inscription : 29/12/2004

MessageSujet: Re: Répertoire acoustique   Lun 28 Aoû 2006, 19:22

Thanks Alex pour tes suggestions, je vais examiner ce qui peux être fait de mon côté!

Question, tu joues ces tounnes dans ton répertoire?
Revenir en haut Aller en bas
Voir le profil de l'utilisateur http://yvan.brouillette.googlepages.com/home
alexsamsoon
Langue pendue


Nombre de messages : 391
Age : 29
Localisation : Ste-Foy
Instrument : Epiphone LP Standard - Epiphone Hummingbird
Amplification/Effets : Traynor YCV-40
Date d'inscription : 21/06/2006

MessageSujet: Re: Répertoire acoustique   Lun 28 Aoû 2006, 22:15

Ques tu veut dire au fait, tu joues ces tounes dans ton repertoire??

Ce sont des tounes que je joues soit seul ou avec un de mes pot!
Revenir en haut Aller en bas
Voir le profil de l'utilisateur
GranBjam
Langue pendue
avatar

Nombre de messages : 166
Localisation : Granby
Instrument : Yamaha APX-4 (6) Normand B-20 (12) Tanglewood (6)
Date d'inscription : 29/12/2004

MessageSujet: Re: Répertoire acoustique   Lun 28 Aoû 2006, 23:42

J'étais juste curieux Alex, parce que si tu regardes ma liste il y a plusieurs de tes suggestions qui si trouvent.

J'imagine que mon répertoire n'est pas si mal après tout...
Revenir en haut Aller en bas
Voir le profil de l'utilisateur http://yvan.brouillette.googlepages.com/home
Holy
Langue pendue
avatar

Nombre de messages : 531
Age : 34
Localisation : Québec
Instrument : ESP/Schecter/Ibanez/Ovation/Seagull
Amplification/Effets : Carvin V3/G-Major/Morley Tremonti Wah
Date d'inscription : 19/06/2006

MessageSujet: Re: Répertoire acoustique   Mar 29 Aoû 2006, 08:16

Moi j'ai pas grand chose dans mon répertoire mais en voici la courte liste pareil.

Cowboys fringant - Plus Rien, ti-cul, les étoiles filantes, la reine, bref pomal tout leur dernier album
Kain - Adam et Ève
Kansas - Dust in the wind
Mr Big - Be with you
Joe Dassin - Salut les amoureux, il était une fois nous deux
Didier Barbelivien - plusieurs....
Lynyrd Slynyrd - Sweet home alabama
Une couple de compo blues de mes profs de guit du secondaire.

Pour l'instant c'est tout ce que je peux me rappeler.
Revenir en haut Aller en bas
Voir le profil de l'utilisateur http://www.myspace.com/theresilienceband
Didi
Modérateur
avatar

Nombre de messages : 2330
Localisation : Granby
Instrument : Gibson LP, Strat, Normand, 2 Godins
Amplification/Effets : Mesa Single
Date d'inscription : 24/12/2004

MessageSujet: Re: Répertoire acoustique   Mar 29 Aoû 2006, 08:30

Voici une partie de mon répertoire… donne men des nouvelles…

RAFERTY GERRY Stuck in the Midle with you
VALIQUETTE GILLES La Vie En Rose
EAGLES Take it Easy
ORBESON ROY Blue Bayou
J. LENNONImagine
ORBESON ROY Crying
PATRICK NORMAND Elle s'en va
MOODY BLUES Night in white Satin
WILLY NELSON Always on my mind
EAGLES Best of my Love
CLAPTON ERIC Layla
EAGLES Tequila Sunrise
FRAMPTON PETER Who baby I love your way
PINK FLOYD Wish you were herr
ROGER KENNY She Believes

_________________
Rock - Hard Rock - Rock Harder - Shit it's Almost Metal

Quote: I'm old but not obsolete
''T-800''
Revenir en haut Aller en bas
Voir le profil de l'utilisateur
GranBjam
Langue pendue
avatar

Nombre de messages : 166
Localisation : Granby
Instrument : Yamaha APX-4 (6) Normand B-20 (12) Tanglewood (6)
Date d'inscription : 29/12/2004

MessageSujet: Re: Répertoire acoustique   Mar 29 Aoû 2006, 23:15

Super!

J'ai du nouveau matériel à explorer, je vous tiens au courant de ce que je retiens pour mes futurs pièces...

Blue Bayou, je l'avais oublié celle-là DiDi...
Sweet home Alabama...
Wish you were here (mais par Angel Forest, vous la connaisez? )
Every breath you take (mais à la Dany Bédar)
Toune d'automne CF...
Un beau grand slow Éric Lapointe
Ballade à Toronto - Jean Leloup
Je suis cool - Gilles Valiquette
Jonquière - Plume
Marie-Lou - Plume

Merci encore et faites moi signe pour des nouvelles tounnes!!! cheers thumleft
Revenir en haut Aller en bas
Voir le profil de l'utilisateur http://yvan.brouillette.googlepages.com/home
alexsamsoon
Langue pendue


Nombre de messages : 391
Age : 29
Localisation : Ste-Foy
Instrument : Epiphone LP Standard - Epiphone Hummingbird
Amplification/Effets : Traynor YCV-40
Date d'inscription : 21/06/2006

MessageSujet: Re: Répertoire acoustique   Mer 30 Aoû 2006, 16:44

Upside Down de jack johnson est bonne jouer avec deux acoustics!
Revenir en haut Aller en bas
Voir le profil de l'utilisateur
GranBjam
Langue pendue
avatar

Nombre de messages : 166
Localisation : Granby
Instrument : Yamaha APX-4 (6) Normand B-20 (12) Tanglewood (6)
Date d'inscription : 29/12/2004

MessageSujet: Re: Répertoire acoustique   Mer 30 Aoû 2006, 20:42

Oui c'est vraie je conais cette tounne, mais effectivement c'est beaucoup mieux à 2 guitares...

Thanks!

Continuez à me feeder!!! Laughing
Revenir en haut Aller en bas
Voir le profil de l'utilisateur http://yvan.brouillette.googlepages.com/home
alexsamsoon
Langue pendue


Nombre de messages : 391
Age : 29
Localisation : Ste-Foy
Instrument : Epiphone LP Standard - Epiphone Hummingbird
Amplification/Effets : Traynor YCV-40
Date d'inscription : 21/06/2006

MessageSujet: Re: Répertoire acoustique   Jeu 31 Aoû 2006, 19:29

Feel Happy de veronique dicaire!
Revenir en haut Aller en bas
Voir le profil de l'utilisateur
Gemnoc
Langue pendue
avatar

Nombre de messages : 110
Localisation : Lévis
Instrument : Larrivée L et parlor, Strat
Amplification/Effets : Amp Can, Marshall
Date d'inscription : 15/07/2006

MessageSujet: Re: Répertoire acoustique   Sam 09 Sep 2006, 16:46

Hé, super idée ce sujet! Very Happy

GrandBjam, j'aime ton répertoire, il y a de tout pour plaire à tout le monde. J'en joue une partie, bien que pour certaines je ne les possède pas bien.

Mes ajouts:

- Eric Clapton: Tears in Heaven (quand je joue celle-là je gagne mon «public» à tout coup, MDR Laughing ), Layla (acoustique), Old Love, Lonely Stranger
- Beau Dommage: Motel mon repos, Le blues de la métropole, Ginette, Tout simplement jaloux, Rive-sud, Le picbois, Tout va bien
- Michel Rivard: La p'tite vie, Lune d'automne (superbe), Parlant de la paix (beat le fun et paroles amusantes), L'oubli, Je voudrais voir la mer, Le passager de l'heure de pointe
- Daniel Bélanger: Les temps fous, Le parapluie, Ma dépendance, La folie en quatre, Opium
- Francis Cabrel: La corrida, Assis sur le rebord du monde, C'est écrit, L'encre de tes yeux, Je l'aime à mourir, Le reste du temps...
- Richard Séguin: L'Ange vagabond, Sous les cheminées, Les bouts de papier
- Patrick Norman: La guitare de Jérémie

Quant à Jack Johnson qui a été mentionné, plusieurs des chansons de In Between Dreams se font bien en guitare solo: Banana Pancakes, Never Know, Better Together, Sitting Waiting Wishing... (En fait, pour ce qui est de les chanter c'est une autre paire de manches...)


Dernière édition par le Sam 09 Sep 2006, 17:04, édité 1 fois
Revenir en haut Aller en bas
Voir le profil de l'utilisateur
Gemnoc
Langue pendue
avatar

Nombre de messages : 110
Localisation : Lévis
Instrument : Larrivée L et parlor, Strat
Amplification/Effets : Amp Can, Marshall
Date d'inscription : 15/07/2006

MessageSujet: Re: Répertoire acoustique   Sam 09 Sep 2006, 17:04

Cat Stevens: Wild World, Father and Son
Revenir en haut Aller en bas
Voir le profil de l'utilisateur
alexsamsoon
Langue pendue


Nombre de messages : 391
Age : 29
Localisation : Ste-Foy
Instrument : Epiphone LP Standard - Epiphone Hummingbird
Amplification/Effets : Traynor YCV-40
Date d'inscription : 21/06/2006

MessageSujet: Re: Répertoire acoustique   Sam 09 Sep 2006, 18:45

Led zep ....Over the hills and far away
Jack Johnson....Taylor
heart ...crazy on you...quoique jai de la misere!!
Revenir en haut Aller en bas
Voir le profil de l'utilisateur
Contenu sponsorisé




MessageSujet: Re: Répertoire acoustique   

Revenir en haut Aller en bas
 
Répertoire acoustique
Voir le sujet précédent Voir le sujet suivant Revenir en haut 
Page 1 sur 2Aller à la page : 1, 2  Suivant
 Sujets similaires
-
» Répertoire acoustique
» jouer du blues acoustique
» Cherche Guitare acoustique pour le blues
» TEST : micro EMG acoustique ACS-EV
» Quel est selon vous l'ampli idéal pour l'acoustique ?

Permission de ce forum:Vous ne pouvez pas répondre aux sujets dans ce forum
Québec-Musique.com :: Instruments :: Guitare acoustique-
Sauter vers: