Québec-Musique.com

Forum de discussion des musiciens et musiciennes du Québec
 
AccueilAccueil  PortailPortail  FAQFAQ  RechercherRechercher  S'enregistrerS'enregistrer  Connexion  

Partagez | 
 

 Recherche partition [Gypsy Eyes]

Aller en bas 
AuteurMessage
yts
Langue pendue
avatar

Nombre de messages : 256
Localisation : Mtl
Instrument : Gretsch / Ibanez / Godin / Aria
Amplification/Effets : Fender Blues Deville, Fender Hotrod Deville
Date d'inscription : 08/02/2005

MessageSujet: Recherche partition [Gypsy Eyes]   Mer 26 Juil 2006, 22:30

Salut, tout est dans le titre,
Je suis à la recherche de la partition de Gypsy Eyes - Jimi Hendrix afro .
J'ai fait quelque recherche mais à date je n'ai pas encore été convaincu par les versions (les MULTIPLES version) trouvé.

Si jamais vous avez le songbook se serait sympa de me le mp-er Embarassed

Merci à l'avance salut
Revenir en haut Aller en bas
Voir le profil de l'utilisateur
Steppenwolf
Langue pendue
avatar

Nombre de messages : 74
Age : 38
Localisation : Laurentide
Date d'inscription : 21/08/2006

MessageSujet: Re: Recherche partition [Gypsy Eyes]   Ven 25 Aoû 2006, 01:15

E ------|------|------|------|------|------|------|------|-12-15-|-17-
B ------|------|------|------|------|------|------|------|-------|----
G ------|------|------|------|------|------|------|------|-------|----
D ------|------|------|------|------|------|------|------|-------|----
A ------|------|------|------|------|------|------|------|-------|----
E ------|------|------|------|------|------|------|------|-------|----

E 17-15-17-17-12-8-|-10-8-10-3-5-8-12-|-15-12-10-8-5-|-5-8-12-|-15-12-
B -----------------|------------------|--------------|--------|-------
G -----------------|------------------|--------------|--------|-------
D -----------------|------------------|--------------|--------|-------
A -----------------|------------------|--------------|--------|-------
E -----------------|------------------|--------------|--------|-------

E 10-8-5-|-8----|------|------|------|-12-12-12-12-12-12-12-|------|-3
B -------|---10-|------|------|------|-13-13-13-13-13-13-13-|------|-5
G -------|------|------|------|------|----------------------|------|--
D -------|------|------|------|------|----------------------|------|--
A -------|------|------|------|------|----------------------|------|--
E -------|------|------|------|------|----------------------|------|--

E -|------|-1-12-12-12-12-12-|------|-5-0-------|------|--------------
B -|------|-3-13-13-13-13-13-|------|-----3-1---|------|---1-3-3-1----
G -|------|------------------|------|---------2-|------|-2---------2-2
D -|------|------------------|------|-----------|------|--------------
A -|------|------------------|------|-----------|------|--------------
E -|------|------------------|------|-----------|------|--------------

E -----------|------|------|-3-0---------|-----8-8-8-8-----|------|-1-
B -1-3-3-----|------|------|-----3-1-1---|-3-1-8-8-8-8-3-1-|------|-3-
G -------5-2-|------|------|-----------2-|-----------------|------|---
D -----------|------|------|-------------|-----------------|------|---
A -----------|------|------|-------------|-----------------|------|---
E -----------|------|------|-------------|-----------------|------|---

E |------|-1-0-|------|-------------|------|-3---------|------|-0-----
B |------|-3-1-|------|-------------|------|---5-3-1---|------|---1-2-
G |------|-----|------|-2-2-2---0-2-|------|---------0-|------|-------
D |------|-----|------|-------2-----|------|-----------|------|-------
A |------|-----|------|-------------|------|-----------|------|-------
E |------|-----|------|-------------|------|-----------|------|-------

E ----|-3-0-------|-----|-0-0-5-0-----|---3---3---3---3-5-|-----------
B 3---|-----3-1---|-3-1-|---------3---|---3-5---5---3-----|----13---8-
G --0-|---------2-|-----|-----------5-|-------------------|-12----7---
D ----|-----------|-----|-------------|-7-----------------|-----------
A ----|-----------|-----|-------------|-------------------|-----------
E ----|-----------|-----|-------------|-------------------|-----------

E ------------|-8---0-8-7-|-8---0----0-3-0-3-|-3-8---0-8-3-3-3-3-5-|-8
B 5----13-8---|-8-3---8-3-|-8-3---13---------|---8-3---------------|-8
G --12------7-|-------9---|------------------|---------------------|--
D ------------|-----------|------------------|---------------------|--
A ------------|-----------|------------------|---------------------|--
E ------------|-----------|------------------|---------------------|--

E ---0-8---3---3---3-|-3-8---0-8-------|-3-8---0-0-3-3-3-3-|-8---0-0-3
B -3-----8---8---8---|---8-3-----13----|-----3-------------|-8-3------
G -------------------|--------------12-|-------------------|----------
D -------------------|-----------------|-------------------|----------
A -------------------|-----------------|-------------------|----------
E -------------------|-----------------|-------------------|----------

E -3-3-3-|-3-8---0-8-8-7-7-|-8---0-8-3-3-3-3-|-8---0-8-8-0---|-8-3-3-3
B -------|---8-3---5-5-3-3-|-8-3-------------|-8-3---8-8---3-|-8------
G -------|-----------------|-----------------|---------------|--------
D -------|-----------------|-----------------|---------------|--------
A -------|-----------------|-----------------|---------------|--------
E -------|-----------------|-----------------|---------------|--------

E -3-8-|-8---0-8-8-7-8--|-12-12-12-12-12-12-10-8-|-10-10-10-10-12-10-8
B ---8-|-8-3---8-8-8-10-|------------------------|--------------------
G -----|-------9-9-7-9--|------------------------|--------------------
D -----|----------------|------------------------|--------------------
A -----|----------------|------------------------|--------------------
E -----|----------------|------------------------|--------------------

E -|-5-|-8-5-3-0-0-----|---|------|------|---------------------------1
B -|---|-----------1---|---|------|------|-----------------------1----
G -|---|-------------2-|---|------|------|---2---2---2---2---0---2---2
D -|---|---------------|---|------|------|-5---5---5---5---5----------
A -|---|---------------|-0-|------|------|---------------------0---0--
E -|---|---------------|---|------|------|----------------------------

E 2-15-|-17-17-15-17-17-12-8-|-10-8-10-3-5-8-12-|-15-12-12-10-8-5-|-5-
B -----|---------------------|------------------|-----------------|---
G -----|---------------------|------------------|-----------------|---
D -----|---------------------|------------------|-----------------|---
A -----|---------------------|------------------|-----------------|---
E -----|---------------------|------------------|-----------------|---

E 8-12-|-15-12-12-10-8-5-|-3-5-8-|-3-5-8---5---5---5---5---5---5---5--
B -----|-----------------|-------|-------8---8---8---8---8---8---8---8
G -----|-----------------|-------|------------------------------------
D -----|-----------------|-------|------------------------------------
A -----|-----------------|-------|------------------------------------
E -----|-----------------|-------|------------------------------------

E -|-5---5---5---5---5---5---5-----5-8-10-|------|------|------|------
B -|---8---8---8---8---8---8---8-8--------|------|------|------|------
G -|--------------------------------------|------|------|------|------
D -|--------------------------------------|------|------|------|------
A -|--------------------------------------|------|------|------|------
E -|--------------------------------------|------|------|------|------

E |------|------|------|-15-|------|-15----15-|-15-15----15-15-15-15-|
B |------|------|------|-17-|------|-17-16----|-17----16-17-16-17-15-|
G |------|------|------|----|------|----------|----------------------|
D |------|------|------|----|------|----------|----------------------|
A |------|------|------|----|------|----------|----------------------|
E |------|------|------|----|------|----------|----------------------|

E ------|-------|-------|------|-------------|------|-0---0---------|-
B ------|-------|-------|------|-------------|------|---1---3-1-----|-
G ------|-0-0---|-------|------|-----0-----2-|------|-----------2-0-|-
D ------|-----4-|-2-2-2-|------|-2-0---4-2---|------|---------------|-
A ------|-------|-------|------|-------------|------|---------------|-
E ------|-------|-------|------|-------------|------|---------------|-

E -----|-8-10-|-12-12-8-10-5-12-|----10-8----8-5-3-|-15-14-12-10-9-|-7
B -----|------|-----------------|-13------10-------|---------------|--
G -----|------|-----------------|------------------|---------------|--
D -----|------|-----------------|------------------|---------------|--
A -----|------|-----------------|------------------|---------------|--
E -----|------|-----------------|------------------|---------------|--

E -5-5-5-3-3-0---|-17-17-15-12-10-10-|----10----5-8-5-|-8-5-2-5-0-0-5-
B ---------------|-------------------|-13----13-------|---------------
G -------------2-|-------------------|----------------|---------------
D ---------------|-------------------|----------------|---------------
A ---------------|-------------------|----------------|---------------
E ---------------|-------------------|----------------|---------------

E 3-0-0-|-------------------0-|-3-0-8-5-0-8-5-0-8-5-0-10-|-8-10-8-|-5-
B ------|-3-1---3-3-1-----4---|--------------------------|--------|---
G ------|-----2-------2-0-----|--------------------------|--------|---
D ------|---------------------|--------------------------|--------|---
A ------|---------------------|--------------------------|--------|---
E ------|---------------------|--------------------------|--------|---

E 3-0-----3---------0-3-0-|-0-----------0-0-0-----|-5-3-5-0-3-5-8-5-0-
B ----4-5---5---3-4-------|---1-3-1-----------3-1-|-------------------
G ------------8-----------|---------2-0-----------|-------------------
D ------------------------|-----------------------|-------------------
A ------------------------|-----------------------|-------------------
E ------------------------|-----------------------|-------------------

E 3-0-|-0-3-5-8-7-0-3-5-8-5-0-3-5-8-|-3-9-9-9-9-9-9-9-9-9-9-|-10-10-10
B ----|-----------------------------|-5-8-8-8-8-8-8-8-8-8-8-|-6--6--6-
G ----|-----------------------------|---9-9-9-9-9-9-9-9-9-9-|---------
D ----|-----------------------------|-----------------------|---------
A ----|-----------------------------|-----------------------|---------
E ----|-----------------------------|-----------------------|---------

E -11-11-11-12-12-12-12-|
B -7--7--7--8--8--8--8--|
G ----------------------|
D ----------------------|
A ----------------------|
E ----------------------|
Revenir en haut Aller en bas
Voir le profil de l'utilisateur http://www.fridaysheroes.com
Steppenwolf
Langue pendue
avatar

Nombre de messages : 74
Age : 38
Localisation : Laurentide
Date d'inscription : 21/08/2006

MessageSujet: Re: Recherche partition [Gypsy Eyes]   Ven 25 Aoû 2006, 01:16

j'ai la version txt si tu veux....elle est moin tout croche que celle...la..je sé pas si sa peu taider.....mais bon.redonne moi des news
Revenir en haut Aller en bas
Voir le profil de l'utilisateur http://www.fridaysheroes.com
MgaM
Bavard


Nombre de messages : 33
Age : 29
Localisation : Châteauguay, Québec
Instrument : Disquaire
Amplification/Effets : Musique
Date d'inscription : 06/07/2006

MessageSujet: Re: Recherche partition [Gypsy Eyes]   Ven 25 Aoû 2006, 19:21

c'est pas la bonne police c'est tout
Revenir en haut Aller en bas
Voir le profil de l'utilisateur http://myspace.com/xgamachex
Contenu sponsorisé




MessageSujet: Re: Recherche partition [Gypsy Eyes]   

Revenir en haut Aller en bas
 
Recherche partition [Gypsy Eyes]
Revenir en haut 
Page 1 sur 1
 Sujets similaires
-
» Recherche partition [Gypsy Eyes]
» Recherche partition Guitare basse "Quand t'es dans le desert"
» Recherche partition euphonium Puerta del sol
» Recherche Partition Feu Nouveau F 510
» Piano RECHERCHE Partition

Permission de ce forum:Vous ne pouvez pas répondre aux sujets dans ce forum
Québec-Musique.com :: Instruments :: Théorie/Harmonie-
Sauter vers: